Crimea Guitar Tabs

Hot off the press, here's some bass tabs for a couple of songs tabbed by none other than Crimea bassist Joe Udwin. So far there's Allah Was Wrong and Howling At The Moon but before you start, here's a helpful little note from the man himself:

I always detune my bass down an entire step to:
E -> D
A -> G
D -> C
G -> F
If you want to play in standard tuning, just play everything two frets lower!

Allah - Bass Tabs
===============================

Allah is pretty easy really, its important to just get the rythym right (said the actress to the bishop.)
At the risk of sounding like a complete idiot the verse and pre-chorus bits both go:
ba ba bababa ba ba ba baba, ba ba bababa ba ba ba baba.
Anyway you're probably better at playing bass than me, so it'll be fine!


[Intro and Verse]
  
    'In a violent rage...in a violent rage'
D:|----------------------------------------

G:|--5-5-555-3-3-3-33----7-7-777-5-5-5-55--

c:|----------------------------------------

F:|----------------------------------------


[Pre-Chorus]
same thing as the verse, just on a lower string

D:|--5-5-555-3-3-3-33----7-7-777-5-5-5-55--

G:|----------------------------------------

c:|----------------------------------------

F:|----------------------------------------


[Chorus]

                
D:|--5-5-5555--7-7-7----1-1-111------------

G:|-----------------------------3-3-3-3----

c:|----------------------------------------

F:|----------------------------------------


[Middle Eight] 'chihuahua, chihuahua,chi hua hua huaaaaaaaaa!'

D:|--3-3-3333--5-5-5555--7-7-7----1-1-111----------

G:|---------------------------------------3-3-3-3--

c:|------------------------------------------------

F:|------------------------------------------------



Howling at the Moon - Bass Tabs
===============================

This one is quite tricky cos it flows nicely in the verse but gets pretty fast and choppy in the chorus
and you have to mute the strings after each little staccato attack.
Anyway you're probably better at playing bass than me, so it'll be fine!


Key:
h = hammer on or off


[Intro and pre-chorus]

D:|---------------------------------------------------------------

G:|----12-12------------------------------------------------------

c:|----------11-h-12-h-14-14-14----12-12-12-h-11-h-12-h-14--14-14-

F:|---------------------------------------------------------------


[Verse]
exactly the same thing as the Intro, just an octave lower

D:|----5-5------------------------------------------------------

G:|----------4-h-5-h-7--7-7-----5-5-5-h-4-h-5-h-7--7-7----------

c:|-------------------------------------------------------------

F:|-------------------------------------------------------------


[Chorus]
Very staccato

D:|----77--777--777--7-9-10--------------------------------------------------

G:|-------------------------77-777-777-7-10-9-77-777-777-797-55-555-555-5-55-

c:|--------------------------------------------------------------------------

F:|--------------------------------------------------------------------------

[Middle Eight] 'Don't leave me in this world...'
Alternate between the intro bit and the verse bit twice.
All tabs 2005 King Kong.
All tabs are for research and study purposes only.